ISO-10303-21;
HEADER;
FILE_DESCRIPTION (( 'STEP AP214' ),
    '1' );
FILE_NAME ('243-240-317.STEP',
    '2020-08-19T16:38:39',
    ( '' ),
    ( '' ),
    'SwSTEP 2.0',
    'SolidWorks 2020',
    '' );
FILE_SCHEMA (( 'AUTOMOTIVE_DESIGN' ));
ENDSEC;

DATA;
#1 =( LENGTH_UNIT ( ) NAMED_UNIT ( * ) SI_UNIT ( $, .METRE. ) );
#2 = ORIENTED_EDGE ( 'NONE', *, *, #155, .F. ) ;
#3 = ORIENTED_EDGE ( 'NONE', *, *, #206, .F. ) ;
#4 = ORIENTED_EDGE ( 'NONE', *, *, #155, .T. ) ;
#5 = EDGE_CURVE ( 'NONE', #160, #32, #142, .T. ) ;
#6 = ORIENTED_EDGE ( 'NONE', *, *, #195, .F. ) ;
#7 =( GEOMETRIC_REPRESENTATION_CONTEXT ( 3 ) GLOBAL_UNCERTAINTY_ASSIGNED_CONTEXT ( ( #202 ) ) GLOBAL_UNIT_ASSIGNED_CONTEXT ( ( #97, #116, #141 ) ) REPRESENTATION_CONTEXT ( 'NONE', 'WORKASPACE' ) );
#8 = EDGE_LOOP ( 'NONE', ( #211, #102, #244, #232 ) ) ;
#9 = LINE ( 'NONE', #234, #247 ) ;
#10 = LENGTH_MEASURE_WITH_UNIT ( LENGTH_MEASURE( 0.02539999999999999897 ), #153 );
#11 = CIRCLE ( 'NONE', #25, 0.03199999999999999373 ) ;
#12 = CARTESIAN_POINT ( 'NONE',  ( 0.06149999999999998523, -0.1368128283458828198, 0.02500000000000000139 ) ) ;
#13 = CARTESIAN_POINT ( 'NONE',  ( -0.06150000000000000605, -0.1368128283458828198, 0.0000000000000000000 ) ) ;
#14 = PLANE ( 'NONE',  #147 ) ;
#15 = PRODUCT_DEFINITION ( 'UNKNOWN', '', #218, #96 ) ;
#16 = FACE_OUTER_BOUND ( 'NONE', #8, .T. ) ;
#17 = CARTESIAN_POINT ( 'NONE',  ( -8.537024980200822558E-18, 1.707404996040164512E-17, 0.02500000000000000139 ) ) ;
#18 =( GEOMETRIC_REPRESENTATION_CONTEXT ( 3 ) GLOBAL_UNCERTAINTY_ASSIGNED_CONTEXT ( ( #216 ) ) GLOBAL_UNIT_ASSIGNED_CONTEXT ( ( #239, #274, #39 ) ) REPRESENTATION_CONTEXT ( 'NONE', 'WORKASPACE' ) );
#19 = FACE_OUTER_BOUND ( 'NONE', #122, .T. ) ;
#20 = DIRECTION ( 'NONE',  ( -0.0000000000000000000, -0.0000000000000000000, -1.000000000000000000 ) ) ;
#21 = EDGE_CURVE ( 'NONE', #123, #32, #46, .T. ) ;
#22 = DIRECTION ( 'NONE',  ( -0.0000000000000000000, -0.0000000000000000000, -1.000000000000000000 ) ) ;
#23 = AXIS2_PLACEMENT_3D ( 'NONE', #169, #35, #233 ) ;
#24 = UNCERTAINTY_MEASURE_WITH_UNIT (LENGTH_MEASURE( 1.000000000000000082E-05 ), #40, 'distance_accuracy_value', 'NONE');
#25 = AXIS2_PLACEMENT_3D ( 'NONE', #42, #196, #64 ) ;
#26 = DIRECTION ( 'NONE',  ( 0.0000000000000000000, 0.0000000000000000000, 1.000000000000000000 ) ) ;
#27 = ORIENTED_EDGE ( 'NONE', *, *, #282, .T. ) ;
#28 = ORIENTED_EDGE ( 'NONE', *, *, #21, .F. ) ;
#29 = ADVANCED_FACE ( 'NONE', ( #229 ), #187, .F. ) ;
#30 = ORIENTED_EDGE ( 'NONE', *, *, #185, .T. ) ;
#31 = EDGE_LOOP ( 'NONE', ( #208, #205, #266, #125, #28, #230 ) ) ;
#32 = VERTEX_POINT ( 'NONE', #194 ) ;
#33 = CIRCLE ( 'NONE', #175, 0.03200000000000000067 ) ;
#34 = FACE_OUTER_BOUND ( 'NONE', #77, .T. ) ;
#35 = DIRECTION ( 'NONE',  ( 0.0000000000000000000, 0.0000000000000000000, 1.000000000000000000 ) ) ;
#36 = SURFACE_STYLE_FILL_AREA ( #171 ) ;
#37 = EDGE_CURVE ( 'NONE', #160, #104, #131, .T. ) ;
#38 = SURFACE_SIDE_STYLE ('',( #36 ) ) ;
#39 =( NAMED_UNIT ( * ) SI_UNIT ( $, .STERADIAN. ) SOLID_ANGLE_UNIT ( ) );
#40 =( CONVERSION_BASED_UNIT ( 'INCH', #10 ) LENGTH_UNIT ( ) NAMED_UNIT ( #83 ) );
#41 = CARTESIAN_POINT ( 'NONE',  ( -0.02949999999999999845, 0.1179999999999999799, 0.02500000000000000139 ) ) ;
#42 = CARTESIAN_POINT ( 'NONE',  ( -0.02949999999999999845, 0.1179999999999999799, 0.0000000000000000000 ) ) ;
#43 = CARTESIAN_POINT ( 'NONE',  ( -0.06150000000000000605, -0.1368128283458828198, 0.02500000000000000139 ) ) ;
#44 = ADVANCED_BREP_SHAPE_REPRESENTATION ( '243-240-317', ( #118, #161 ), #18 ) ;
#45 = LENGTH_MEASURE_WITH_UNIT ( LENGTH_MEASURE( 0.02539999999999999897 ), #180 );
#46 = CIRCLE ( 'NONE', #68, 0.03200000000000000067 ) ;
#47 = ORIENTED_EDGE ( 'NONE', *, *, #70, .T. ) ;
#48 = EDGE_CURVE ( 'NONE', #268, #144, #91, .T. ) ;
#49 = CARTESIAN_POINT ( 'NONE',  ( 0.02950000000000000885, 0.1499999999999999667, 0.02500000000000000139 ) ) ;
#50 = DIRECTION ( 'NONE',  ( 0.0000000000000000000, -1.000000000000000000, 0.0000000000000000000 ) ) ;
#51 = ORIENTED_EDGE ( 'NONE', *, *, #195, .T. ) ;
#52 = DIRECTION ( 'NONE',  ( 1.000000000000000000, 0.0000000000000000000, 0.0000000000000000000 ) ) ;
#53 = PRESENTATION_LAYER_ASSIGNMENT (  '', '', ( #59 ) ) ;
#54 = DIRECTION ( 'NONE',  ( -1.000000000000000000, 3.350312084214484282E-17, 0.0000000000000000000 ) ) ;
#55 = DIRECTION ( 'NONE',  ( 0.0000000000000000000, -0.0000000000000000000, -1.000000000000000000 ) ) ;
#56 = LINE ( 'NONE', #280, #99 ) ;
#57 = ADVANCED_FACE ( 'NONE', ( #258 ), #14, .F. ) ;
#58 = PRESENTATION_STYLE_ASSIGNMENT (( #214 ) ) ;
#59 = STYLED_ITEM ( 'NONE', ( #283 ), #44 ) ;
#60 = AXIS2_PLACEMENT_3D ( 'NONE', #63, #279, #158 ) ;
#61 = FACE_OUTER_BOUND ( 'NONE', #250, .T. ) ;
#62 = CARTESIAN_POINT ( 'NONE',  ( 0.06149999999999998523, -0.1368128283458828198, 0.02500000000000000139 ) ) ;
#63 = CARTESIAN_POINT ( 'NONE',  ( -0.06150000000000000605, -0.1368128283458828198, 0.02500000000000000139 ) ) ;
#64 = DIRECTION ( 'NONE',  ( 1.000000000000000000, 0.0000000000000000000, 0.0000000000000000000 ) ) ;
#65 = CARTESIAN_POINT ( 'NONE',  ( -0.06150000000000000605, -0.1368128283458828198, 0.02500000000000000139 ) ) ;
#66 = SURFACE_SIDE_STYLE ('',( #242 ) ) ;
#67 = ORIENTED_EDGE ( 'NONE', *, *, #48, .T. ) ;
#68 = AXIS2_PLACEMENT_3D ( 'NONE', #207, #100, #182 ) ;
#69 = COLOUR_RGB ( '',0.8431372549019607865, 0.8156862745098039102, 0.7529411764705882248 ) ;
#70 = EDGE_CURVE ( 'NONE', #104, #271, #9, .T. ) ;
#71 = ORIENTED_EDGE ( 'NONE', *, *, #264, .T. ) ;
#72 = CIRCLE ( 'NONE', #154, 0.03199999999999999373 ) ;
#73 = VERTEX_POINT ( 'NONE', #170 ) ;
#74 = ADVANCED_FACE ( 'NONE', ( #128 ), #192, .F. ) ;
#75 = ORIENTED_EDGE ( 'NONE', *, *, #185, .F. ) ;
#76 = SURFACE_STYLE_USAGE ( .BOTH. , #66 ) ;
#77 = EDGE_LOOP ( 'NONE', ( #30, #103, #165, #228, #51, #146 ) ) ;
#78 = VECTOR ( 'NONE', #22, 39.37007874015748143 ) ;
#79 = VERTEX_POINT ( 'NONE', #276 ) ;
#80 = CARTESIAN_POINT ( 'NONE',  ( 0.02949999999999999845, 0.1179999999999999799, 0.02500000000000000139 ) ) ;
#81 = LINE ( 'NONE', #149, #186 ) ;
#82 = CARTESIAN_POINT ( 'NONE',  ( 0.06149999999999999911, 0.1179999999999999799, 0.0000000000000000000 ) ) ;
#83 = DIMENSIONAL_EXPONENTS ( 1.000000000000000000, 0.0000000000000000000, 0.0000000000000000000, 0.0000000000000000000, 0.0000000000000000000, 0.0000000000000000000, 0.0000000000000000000 ) ;
#84 = EDGE_CURVE ( 'NONE', #73, #246, #152, .T. ) ;
#85 = DIRECTION ( 'NONE',  ( -0.0000000000000000000, -0.0000000000000000000, -1.000000000000000000 ) ) ;
#86 = DIRECTION ( 'NONE',  ( -1.000000000000000000, 0.0000000000000000000, 0.0000000000000000000 ) ) ;
#87 = DIRECTION ( 'NONE',  ( -1.000000000000000000, 0.0000000000000000000, 0.0000000000000000000 ) ) ;
#88 = FILL_AREA_STYLE_COLOUR ( '', #188 ) ;
#89 =( GEOMETRIC_REPRESENTATION_CONTEXT ( 3 ) GLOBAL_UNCERTAINTY_ASSIGNED_CONTEXT ( ( #24 ) ) GLOBAL_UNIT_ASSIGNED_CONTEXT ( ( #40, #273, #272 ) ) REPRESENTATION_CONTEXT ( 'NONE', 'WORKASPACE' ) );
#90 = CYLINDRICAL_SURFACE ( 'NONE', #215, 0.03200000000000000067 ) ;
#91 = CIRCLE ( 'NONE', #231, 0.1499999999999999944 ) ;
#92 = VECTOR ( 'NONE', #130, 39.37007874015748143 ) ;
#93 = CARTESIAN_POINT ( 'NONE',  ( -0.02949999999999999845, 0.1179999999999999799, 0.02500000000000000139 ) ) ;
#94 = VECTOR ( 'NONE', #263, 39.37007874015748143 ) ;
#95 = EDGE_CURVE ( 'NONE', #32, #271, #81, .T. ) ;
#96 = PRODUCT_DEFINITION_CONTEXT ( 'detailed design', #145, 'design' ) ;
#97 =( CONVERSION_BASED_UNIT ( 'INCH', #140 ) LENGTH_UNIT ( ) NAMED_UNIT ( #212 ) );
#98 = EDGE_CURVE ( 'NONE', #79, #168, #190, .T. ) ;
#99 = VECTOR ( 'NONE', #172, 39.37007874015748143 ) ;
#100 = DIRECTION ( 'NONE',  ( 0.0000000000000000000, 0.0000000000000000000, 1.000000000000000000 ) ) ;
#101 = PRODUCT_DEFINITION_SHAPE ( 'NONE', 'NONE',  #15 ) ;
#102 = ORIENTED_EDGE ( 'NONE', *, *, #5, .F. ) ;
#103 = ORIENTED_EDGE ( 'NONE', *, *, #98, .T. ) ;
#104 = VERTEX_POINT ( 'NONE', #107 ) ;
#105 = AXIS2_PLACEMENT_3D ( 'NONE', #199, #134, #86 ) ;
#106 = ORIENTED_EDGE ( 'NONE', *, *, #37, .F. ) ;
#107 = CARTESIAN_POINT ( 'NONE',  ( -0.02950000000000000885, 0.1499999999999999667, 0.02500000000000000139 ) ) ;
#108 = ADVANCED_FACE ( 'NONE', ( #34 ), #259, .T. ) ;
#109 = DIRECTION ( 'NONE',  ( 1.000000000000000000, 0.0000000000000000000, -0.0000000000000000000 ) ) ;
#110 = DIRECTION ( 'NONE',  ( -3.350312084214484282E-17, -1.000000000000000000, 0.0000000000000000000 ) ) ;
#111 = LINE ( 'NONE', #277, #126 ) ;
#112 = CARTESIAN_POINT ( 'NONE',  ( -0.06149999999999999911, 0.1179999999999999799, 0.0000000000000000000 ) ) ;
#113 = PLANE ( 'NONE',  #60 ) ;
#114 = LINE ( 'NONE', #262, #94 ) ;
#115 = APPLICATION_PROTOCOL_DEFINITION ( 'draft international standard', 'automotive_design', 1998, #145 ) ;
#116 =( NAMED_UNIT ( * ) PLANE_ANGLE_UNIT ( ) SI_UNIT ( $, .RADIAN. ) );
#117 = MECHANICAL_DESIGN_GEOMETRIC_PRESENTATION_REPRESENTATION (  '', ( #166 ), #89 ) ;
#118 = MANIFOLD_SOLID_BREP ( 'Boss-Extrude1', #119 ) ;
#119 = CLOSED_SHELL ( 'NONE', ( #270, #57, #255, #29, #150, #235, #108, #74 ) ) ;
#120 = DIRECTION ( 'NONE',  ( -0.0000000000000000000, -0.0000000000000000000, -1.000000000000000000 ) ) ;
#121 = EDGE_LOOP ( 'NONE', ( #67, #162, #75, #4 ) ) ;
#122 = EDGE_LOOP ( 'NONE', ( #164, #2, #3, #249 ) ) ;
#123 = VERTEX_POINT ( 'NONE', #82 ) ;
#124 = EDGE_CURVE ( 'NONE', #168, #160, #33, .T. ) ;
#125 = ORIENTED_EDGE ( 'NONE', *, *, #95, .F. ) ;
#126 = VECTOR ( 'NONE', #135, 39.37007874015748143 ) ;
#127 = VECTOR ( 'NONE', #236, 39.37007874015748143 ) ;
#128 = FACE_OUTER_BOUND ( 'NONE', #31, .T. ) ;
#129 = DIMENSIONAL_EXPONENTS ( 1.000000000000000000, 0.0000000000000000000, 0.0000000000000000000, 0.0000000000000000000, 0.0000000000000000000, 0.0000000000000000000, 0.0000000000000000000 ) ;
#130 = DIRECTION ( 'NONE',  ( -1.000000000000000000, 0.0000000000000000000, 0.0000000000000000000 ) ) ;
#131 = LINE ( 'NONE', #151, #92 ) ;
#132 = CARTESIAN_POINT ( 'NONE',  ( -0.02950000000000000885, 0.1499999999999999667, 0.0000000000000000000 ) ) ;
#133 = AXIS2_PLACEMENT_3D ( 'NONE', #17, #237, #109 ) ;
#134 = DIRECTION ( 'NONE',  ( -0.0000000000000000000, -0.0000000000000000000, -1.000000000000000000 ) ) ;
#135 = DIRECTION ( 'NONE',  ( -3.350312084214484282E-17, -1.000000000000000000, -0.0000000000000000000 ) ) ;
#136 = LINE ( 'NONE', #62, #226 ) ;
#137 = DIRECTION ( 'NONE',  ( 0.0000000000000000000, 0.0000000000000000000, 1.000000000000000000 ) ) ;
#138 = PRODUCT_RELATED_PRODUCT_CATEGORY ( 'part', '', ( #209 ) ) ;
#139 = AXIS2_PLACEMENT_3D ( 'NONE', #167, #50, #55 ) ;
#140 = LENGTH_MEASURE_WITH_UNIT ( LENGTH_MEASURE( 0.02539999999999999897 ), #1 );
#141 =( NAMED_UNIT ( * ) SI_UNIT ( $, .STERADIAN. ) SOLID_ANGLE_UNIT ( ) );
#142 = LINE ( 'NONE', #49, #191 ) ;
#143 = ORIENTED_EDGE ( 'NONE', *, *, #95, .T. ) ;
#144 = VERTEX_POINT ( 'NONE', #201 ) ;
#145 = APPLICATION_CONTEXT ( 'automotive_design' ) ;
#146 = ORIENTED_EDGE ( 'NONE', *, *, #206, .T. ) ;
#147 = AXIS2_PLACEMENT_3D ( 'NONE', #12, #54, #110 ) ;
#148 = ORIENTED_EDGE ( 'NONE', *, *, #5, .T. ) ;
#149 = CARTESIAN_POINT ( 'NONE',  ( 0.02950000000000000885, 0.1499999999999999667, 0.0000000000000000000 ) ) ;
#150 = ADVANCED_FACE ( 'NONE', ( #61 ), #90, .T. ) ;
#151 = CARTESIAN_POINT ( 'NONE',  ( 0.02950000000000000885, 0.1499999999999999667, 0.02500000000000000139 ) ) ;
#152 = LINE ( 'NONE', #174, #252 ) ;
#153 =( LENGTH_UNIT ( ) NAMED_UNIT ( * ) SI_UNIT ( $, .METRE. ) );
#154 = AXIS2_PLACEMENT_3D ( 'NONE', #41, #240, #159 ) ;
#155 = EDGE_CURVE ( 'NONE', #210, #268, #261, .T. ) ;
#156 = CARTESIAN_POINT ( 'NONE',  ( -8.537024980200822558E-18, 1.707404996040164512E-17, 0.02500000000000000139 ) ) ;
#157 = DIRECTION ( 'NONE',  ( -0.0000000000000000000, -0.0000000000000000000, -1.000000000000000000 ) ) ;
#158 = DIRECTION ( 'NONE',  ( 3.350312084214484282E-17, 1.000000000000000000, 0.0000000000000000000 ) ) ;
#159 = DIRECTION ( 'NONE',  ( 1.000000000000000000, 0.0000000000000000000, 0.0000000000000000000 ) ) ;
#160 = VERTEX_POINT ( 'NONE', #177 ) ;
#161 = AXIS2_PLACEMENT_3D ( 'NONE', #224, #26, #204 ) ;
#162 = ORIENTED_EDGE ( 'NONE', *, *, #264, .F. ) ;
#163 = APPLICATION_CONTEXT ( 'automotive_design' ) ;
#164 = ORIENTED_EDGE ( 'NONE', *, *, #223, .T. ) ;
#165 = ORIENTED_EDGE ( 'NONE', *, *, #124, .T. ) ;
#166 = STYLED_ITEM ( 'NONE', ( #58 ), #118 ) ;
#167 = CARTESIAN_POINT ( 'NONE',  ( 0.02950000000000000885, 0.1499999999999999667, 0.02500000000000000139 ) ) ;
#168 = VERTEX_POINT ( 'NONE', #181 ) ;
#169 = CARTESIAN_POINT ( 'NONE',  ( -8.537024980200822558E-18, 1.707404996040164512E-17, 0.0000000000000000000 ) ) ;
#170 = CARTESIAN_POINT ( 'NONE',  ( -0.06149999999999999911, 0.1179999999999999799, 0.02500000000000000139 ) ) ;
#171 = FILL_AREA_STYLE ('',( #254 ) ) ;
#172 = DIRECTION ( 'NONE',  ( 3.350312084214484282E-17, 1.000000000000000000, 0.0000000000000000000 ) ) ;
#173 = EDGE_CURVE ( 'NONE', #168, #123, #219, .T. ) ;
#174 = CARTESIAN_POINT ( 'NONE',  ( -0.06149999999999999911, 0.1179999999999999799, 0.02500000000000000139 ) ) ;
#175 = AXIS2_PLACEMENT_3D ( 'NONE', #80, #253, #52 ) ;
#176 = CYLINDRICAL_SURFACE ( 'NONE', #105, 0.03199999999999999373 ) ;
#177 = CARTESIAN_POINT ( 'NONE',  ( 0.02950000000000000885, 0.1499999999999999667, 0.02500000000000000139 ) ) ;
#178 = CYLINDRICAL_SURFACE ( 'NONE', #220, 0.1499999999999999944 ) ;
#179 = CARTESIAN_POINT ( 'NONE',  ( -8.537024980200822558E-18, 1.707404996040164512E-17, 0.02500000000000000139 ) ) ;
#180 =( LENGTH_UNIT ( ) NAMED_UNIT ( * ) SI_UNIT ( $, .METRE. ) );
#181 = CARTESIAN_POINT ( 'NONE',  ( 0.06149999999999999911, 0.1179999999999999799, 0.02500000000000000139 ) ) ;
#182 = DIRECTION ( 'NONE',  ( 1.000000000000000000, 0.0000000000000000000, 0.0000000000000000000 ) ) ;
#183 = ORIENTED_EDGE ( 'NONE', *, *, #243, .T. ) ;
#184 = PRODUCT_CONTEXT ( 'NONE', #163, 'mechanical' ) ;
#185 = EDGE_CURVE ( 'NONE', #210, #79, #245, .T. ) ;
#186 = VECTOR ( 'NONE', #87, 39.37007874015748143 ) ;
#187 = PLANE ( 'NONE',  #139 ) ;
#188 = COLOUR_RGB ( '',0.8431372549019607865, 0.8156862745098039102, 0.7529411764705882248 ) ;
#189 = ORIENTED_EDGE ( 'NONE', *, *, #173, .F. ) ;
#190 = LINE ( 'NONE', #213, #127 ) ;
#191 = VECTOR ( 'NONE', #120, 39.37007874015748143 ) ;
#192 = PLANE ( 'NONE',  #23 ) ;
#193 = DIRECTION ( 'NONE',  ( -0.0000000000000000000, -0.0000000000000000000, -1.000000000000000000 ) ) ;
#194 = CARTESIAN_POINT ( 'NONE',  ( 0.02950000000000000885, 0.1499999999999999667, 0.0000000000000000000 ) ) ;
#195 = EDGE_CURVE ( 'NONE', #104, #73, #72, .T. ) ;
#196 = DIRECTION ( 'NONE',  ( 0.0000000000000000000, 0.0000000000000000000, 1.000000000000000000 ) ) ;
#197 = DIRECTION ( 'NONE',  ( -0.0000000000000000000, -0.0000000000000000000, -1.000000000000000000 ) ) ;
#198 = AXIS2_PLACEMENT_3D ( 'NONE', #179, #137, #221 ) ;
#199 = CARTESIAN_POINT ( 'NONE',  ( 0.02949999999999999845, 0.1179999999999999799, 0.02500000000000000139 ) ) ;
#200 = CARTESIAN_POINT ( 'NONE',  ( 0.06149999999999999911, 0.1179999999999999799, 0.02500000000000000139 ) ) ;
#201 = CARTESIAN_POINT ( 'NONE',  ( 0.06149999999999998523, -0.1368128283458828198, 0.0000000000000000000 ) ) ;
#202 = UNCERTAINTY_MEASURE_WITH_UNIT (LENGTH_MEASURE( 1.000000000000000082E-05 ), #97, 'distance_accuracy_value', 'NONE');
#203 = PRESENTATION_LAYER_ASSIGNMENT (  '', '', ( #166 ) ) ;
#204 = DIRECTION ( 'NONE',  ( 1.000000000000000000, 0.0000000000000000000, 0.0000000000000000000 ) ) ;
#205 = ORIENTED_EDGE ( 'NONE', *, *, #223, .F. ) ;
#206 = EDGE_CURVE ( 'NONE', #73, #210, #114, .T. ) ;
#207 = CARTESIAN_POINT ( 'NONE',  ( 0.02949999999999999845, 0.1179999999999999799, 0.0000000000000000000 ) ) ;
#208 = ORIENTED_EDGE ( 'NONE', *, *, #48, .F. ) ;
#209 = PRODUCT ( '243-240-317', '243-240-317', '', ( #184 ) ) ;
#210 = VERTEX_POINT ( 'NONE', #65 ) ;
#211 = ORIENTED_EDGE ( 'NONE', *, *, #21, .T. ) ;
#212 = DIMENSIONAL_EXPONENTS ( 1.000000000000000000, 0.0000000000000000000, 0.0000000000000000000, 0.0000000000000000000, 0.0000000000000000000, 0.0000000000000000000, 0.0000000000000000000 ) ;
#213 = CARTESIAN_POINT ( 'NONE',  ( 0.06149999999999998523, -0.1368128283458828198, 0.02500000000000000139 ) ) ;
#214 = SURFACE_STYLE_USAGE ( .BOTH. , #38 ) ;
#215 = AXIS2_PLACEMENT_3D ( 'NONE', #93, #241, #281 ) ;
#216 = UNCERTAINTY_MEASURE_WITH_UNIT (LENGTH_MEASURE( 1.000000000000000082E-05 ), #239, 'distance_accuracy_value', 'NONE');
#217 = CARTESIAN_POINT ( 'NONE',  ( -8.537024980200822558E-18, 1.707404996040164512E-17, 0.0000000000000000000 ) ) ;
#218 = PRODUCT_DEFINITION_FORMATION_WITH_SPECIFIED_SOURCE ( 'ANY', '', #209, .NOT_KNOWN. ) ;
#219 = LINE ( 'NONE', #200, #238 ) ;
#220 = AXIS2_PLACEMENT_3D ( 'NONE', #156, #20, #257 ) ;
#221 = DIRECTION ( 'NONE',  ( 1.000000000000000000, 0.0000000000000000000, 0.0000000000000000000 ) ) ;
#222 = FILL_AREA_STYLE ('',( #88 ) ) ;
#223 = EDGE_CURVE ( 'NONE', #246, #268, #111, .T. ) ;
#224 = CARTESIAN_POINT ( 'NONE',  ( 0.0000000000000000000, 0.0000000000000000000, 0.0000000000000000000 ) ) ;
#225 = MECHANICAL_DESIGN_GEOMETRIC_PRESENTATION_REPRESENTATION (  '', ( #59 ), #7 ) ;
#226 = VECTOR ( 'NONE', #193, 39.37007874015748143 ) ;
#227 = ORIENTED_EDGE ( 'NONE', *, *, #98, .F. ) ;
#228 = ORIENTED_EDGE ( 'NONE', *, *, #37, .T. ) ;
#229 = FACE_OUTER_BOUND ( 'NONE', #248, .T. ) ;
#230 = ORIENTED_EDGE ( 'NONE', *, *, #282, .F. ) ;
#231 = AXIS2_PLACEMENT_3D ( 'NONE', #217, #256, #275 ) ;
#232 = ORIENTED_EDGE ( 'NONE', *, *, #173, .T. ) ;
#233 = DIRECTION ( 'NONE',  ( 1.000000000000000000, 0.0000000000000000000, -0.0000000000000000000 ) ) ;
#234 = CARTESIAN_POINT ( 'NONE',  ( -0.02950000000000000885, 0.1499999999999999667, 0.02500000000000000139 ) ) ;
#235 = ADVANCED_FACE ( 'NONE', ( #19 ), #113, .F. ) ;
#236 = DIRECTION ( 'NONE',  ( 3.350312084214484282E-17, 1.000000000000000000, 0.0000000000000000000 ) ) ;
#237 = DIRECTION ( 'NONE',  ( 0.0000000000000000000, 0.0000000000000000000, 1.000000000000000000 ) ) ;
#238 = VECTOR ( 'NONE', #157, 39.37007874015748143 ) ;
#239 =( CONVERSION_BASED_UNIT ( 'INCH', #45 ) LENGTH_UNIT ( ) NAMED_UNIT ( #129 ) );
#240 = DIRECTION ( 'NONE',  ( 0.0000000000000000000, 0.0000000000000000000, 1.000000000000000000 ) ) ;
#241 = DIRECTION ( 'NONE',  ( -0.0000000000000000000, -0.0000000000000000000, -1.000000000000000000 ) ) ;
#242 = SURFACE_STYLE_FILL_AREA ( #222 ) ;
#243 = EDGE_CURVE ( 'NONE', #271, #246, #11, .T. ) ;
#244 = ORIENTED_EDGE ( 'NONE', *, *, #124, .F. ) ;
#245 = CIRCLE ( 'NONE', #198, 0.1499999999999999944 ) ;
#246 = VERTEX_POINT ( 'NONE', #112 ) ;
#247 = VECTOR ( 'NONE', #197, 39.37007874015748143 ) ;
#248 = EDGE_LOOP ( 'NONE', ( #143, #251, #106, #148 ) ) ;
#249 = ORIENTED_EDGE ( 'NONE', *, *, #84, .T. ) ;
#250 = EDGE_LOOP ( 'NONE', ( #183, #269, #6, #47 ) ) ;
#251 = ORIENTED_EDGE ( 'NONE', *, *, #70, .F. ) ;
#252 = VECTOR ( 'NONE', #85, 39.37007874015748143 ) ;
#253 = DIRECTION ( 'NONE',  ( 0.0000000000000000000, 0.0000000000000000000, 1.000000000000000000 ) ) ;
#254 = FILL_AREA_STYLE_COLOUR ( '', #69 ) ;
#255 = ADVANCED_FACE ( 'NONE', ( #16 ), #176, .T. ) ;
#256 = DIRECTION ( 'NONE',  ( 0.0000000000000000000, 0.0000000000000000000, 1.000000000000000000 ) ) ;
#257 = DIRECTION ( 'NONE',  ( -1.000000000000000000, 0.0000000000000000000, 0.0000000000000000000 ) ) ;
#258 = FACE_OUTER_BOUND ( 'NONE', #267, .T. ) ;
#259 = PLANE ( 'NONE',  #133 ) ;
#260 = APPLICATION_PROTOCOL_DEFINITION ( 'draft international standard', 'automotive_design', 1998, #163 ) ;
#261 = LINE ( 'NONE', #43, #78 ) ;
#262 = CARTESIAN_POINT ( 'NONE',  ( -0.06150000000000000605, -0.1368128283458828198, 0.02500000000000000139 ) ) ;
#263 = DIRECTION ( 'NONE',  ( -3.350312084214484282E-17, -1.000000000000000000, -0.0000000000000000000 ) ) ;
#264 = EDGE_CURVE ( 'NONE', #79, #144, #136, .T. ) ;
#265 = SHAPE_DEFINITION_REPRESENTATION ( #101, #44 ) ;
#266 = ORIENTED_EDGE ( 'NONE', *, *, #243, .F. ) ;
#267 = EDGE_LOOP ( 'NONE', ( #27, #189, #227, #71 ) ) ;
#268 = VERTEX_POINT ( 'NONE', #13 ) ;
#269 = ORIENTED_EDGE ( 'NONE', *, *, #84, .F. ) ;
#270 = ADVANCED_FACE ( 'NONE', ( #278 ), #178, .T. ) ;
#271 = VERTEX_POINT ( 'NONE', #132 ) ;
#272 =( NAMED_UNIT ( * ) SI_UNIT ( $, .STERADIAN. ) SOLID_ANGLE_UNIT ( ) );
#273 =( NAMED_UNIT ( * ) PLANE_ANGLE_UNIT ( ) SI_UNIT ( $, .RADIAN. ) );
#274 =( NAMED_UNIT ( * ) PLANE_ANGLE_UNIT ( ) SI_UNIT ( $, .RADIAN. ) );
#275 = DIRECTION ( 'NONE',  ( 1.000000000000000000, 0.0000000000000000000, 0.0000000000000000000 ) ) ;
#276 = CARTESIAN_POINT ( 'NONE',  ( 0.06149999999999998523, -0.1368128283458828198, 0.02500000000000000139 ) ) ;
#277 = CARTESIAN_POINT ( 'NONE',  ( -0.06150000000000000605, -0.1368128283458828198, 0.0000000000000000000 ) ) ;
#278 = FACE_OUTER_BOUND ( 'NONE', #121, .T. ) ;
#279 = DIRECTION ( 'NONE',  ( 1.000000000000000000, -3.350312084214484282E-17, 0.0000000000000000000 ) ) ;
#280 = CARTESIAN_POINT ( 'NONE',  ( 0.06149999999999998523, -0.1368128283458828198, 0.0000000000000000000 ) ) ;
#281 = DIRECTION ( 'NONE',  ( -1.000000000000000000, 0.0000000000000000000, 0.0000000000000000000 ) ) ;
#282 = EDGE_CURVE ( 'NONE', #144, #123, #56, .T. ) ;
#283 = PRESENTATION_STYLE_ASSIGNMENT (( #76 ) ) ;
ENDSEC;
END-ISO-10303-21;
